  0
SECTION
  2
HEADER
  9
$ACADVER
  1
AC1015
  9
$ACADMAINTVER
 70
     6
  9
$DWGCODEPAGE
  3
ANSI_1254
  9
$INSBASE
 10
0.0
 20
0.0
 30
0.0
  9
$EXTMIN
 10
0.0
 20
0.0
 30
0.0
  9
$EXTMAX
 10
279.4
 20
215.9
 30
0.0
  9
$LIMMIN
 10
0.0
 20
0.0
  9
$LIMMAX
 10
279.4
 20
215.9
  9
$ORTHOMODE
 70
     0
  9
$REGENMODE
 70
     1
  9
$FILLMODE
 70
     1
  9
$QTEXTMODE
 70
     0
  9
$MIRRTEXT
 70
     1
  9
$LTSCALE
 40
1.0
  9
$ATTMODE
 70
     1
  9
$TEXTSIZE
 40
3.5
  9
$TRACEWID
 40
1.0
  9
$TEXTSTYLE
  7
Standard
  9
$CLAYER
  8
0
  9
$CELTYPE
  6
ByLayer
  9
$CECOLOR
 62
   256
  9
$CELTSCALE
 40
1.0
  9
$DISPSILH
 70
     0
  9
$DIMSCALE
 40
1.0
  9
$DIMASZ
 40
3.5
  9
$DIMEXO
 40
1.0
  9
$DIMDLI
 40
3.75
  9
$DIMRND
 40
0.0
  9
$DIMDLE
 40
0.0
  9
$DIMEXE
 40
1.0
  9
$DIMTP
 40
0.0
  9
$DIMTM
 40
0.0
  9
$DIMTXT
 40
3.5
  9
$DIMCEN
 40
2.5
  9
$DIMTSZ
 40
0.0
  9
$DIMTOL
 70
     0
  9
$DIMLIM
 70
     0
  9
$DIMTIH
 70
     1
  9
$DIMTOH
 70
     1
  9
$DIMSE1
 70
     0
  9
$DIMSE2
 70
     0
  9
$DIMTAD
 70
     1
  9
$DIMZIN
 70
     0
  9
$DIMBLK
  1

  9
$DIMASO
 70
     1
  9
$DIMSHO
 70
     1
  9
$DIMPOST
  1

  9
$DIMAPOST
  1

  9
$DIMALT
 70
     0
  9
$DIMALTD
 70
     3
  9
$DIMALTF
 40
0.0393700787
  9
$DIMLFAC
 40
1.0
  9
$DIMTOFL
 70
     1
  9
$DIMTVP
 40
0.0
  9
$DIMTIX
 70
     0
  9
$DIMSOXD
 70
     0
  9
$DIMSAH
 70
     0
  9
$DIMBLK1
  1

  9
$DIMBLK2
  1

  9
$DIMSTYLE
  2
ISO-25
  9
$DIMCLRD
 70
     0
  9
$DIMCLRE
 70
     0
  9
$DIMCLRT
 70
     0
  9
$DIMTFAC
 40
1.0
  9
$DIMGAP
 40
1.524
  9
$DIMJUST
 70
     0
  9
$DIMSD1
 70
     0
  9
$DIMSD2
 70
     0
  9
$DIMTOLJ
 70
     0
  9
$DIMTZIN
 70
     0
  9
$DIMALTZ
 70
     0
  9
$DIMALTTZ
 70
     0
  9
$DIMUPT
 70
     0
  9
$DIMDEC
 70
     2
  9
$DIMTDEC
 70
     2
  9
$DIMALTU
 70
     2
  9
$DIMALTTD
 70
     3
  9
$DIMTXSTY
  7
Standard
  9
$DIMAUNIT
 70
     0
  9
$DIMADEC
 70
     2
  9
$DIMALTRND
 40
0.0
  9
$DIMAZIN
 70
     0
  9
$DIMDSEP
 70
    44
  9
$DIMATFIT
 70
     3
  9
$DIMFRAC
 70
     0
  9
$DIMLDRBLK
  1

  9
$DIMLUNIT
 70
     2
  9
$DIMLWD
 70
    -2
  9
$DIMLWE
 70
    -2
  9
$DIMTMOVE
 70
     0
  9
$LUNITS
 70
     2
  9
$LUPREC
 70
     2
  9
$SKETCHINC
 40
1.0
  9
$FILLETRAD
 40
10.0
  9
$AUNITS
 70
     0
  9
$AUPREC
 70
     2
  9
$MENU
  1
.
  9
$ELEVATION
 40
0.0
  9
$PELEVATION
 40
0.0
  9
$THICKNESS
 40
0.0
  9
$LIMCHECK
 70
     0
  9
$CHAMFERA
 40
0.0
  9
$CHAMFERB
 40
0.0
  9
$CHAMFERC
 40
0.0
  9
$CHAMFERD
 40
0.0
  9
$SKPOLY
 70
     0
  9
$TDCREATE
 40
2458985.68354228
  9
$TDUCREATE
 40
2458985.55854228
  9
$TDUPDATE
 40
2458985.683542673
  9
$TDUUPDATE
 40
2458985.558542673
  9
$TDINDWG
 40
0.0000000116
  9
$TDUSRTIMER
 40
0.0000000116
  9
$USRTIMER
 70
     1
  9
$ANGBASE
 50
0.0
  9
$ANGDIR
 70
     0
  9
$PDMODE
 70
     0
  9
$PDSIZE
 40
-1.0
  9
$PLINEWID
 40
0.0
  9
$SPLFRAME
 70
     0
  9
$SPLINETYPE
 70
     6
  9
$SPLINESEGS
 70
     8
  9
$HANDSEED
  5
CB
  9
$SURFTAB1
 70
     6
  9
$SURFTAB2
 70
     6
  9
$SURFTYPE
 70
     6
  9
$SURFU
 70
     6
  9
$SURFV
 70
     6
  9
$UCSBASE
  2

  9
$UCSNAME
  2

  9
$UCSORG
 10
0.0
 20
0.0
 30
0.0
  9
$UCSXDIR
 10
1.0
 20
0.0
 30
0.0
  9
$UCSYDIR
 10
0.0
 20
1.0
 30
0.0
  9
$UCSORTHOREF
  2

  9
$UCSORTHOVIEW
 70
     0
  9
$UCSORGTOP
 10
0.0
 20
0.0
 30
0.0
  9
$UCSORGBOTTOM
 10
0.0
 20
0.0
 30
0.0
  9
$UCSORGLEFT
 10
0.0
 20
0.0
 30
0.0
  9
$UCSORGRIGHT
 10
0.0
 20
0.0
 30
0.0
  9
$UCSORGFRONT
 10
0.0
 20
0.0
 30
0.0
  9
$UCSORGBACK
 10
0.0
 20
0.0
 30
0.0
  9
$PUCSBASE
  2

  9
$PUCSNAME
  2

  9
$PUCSORG
 10
0.0
 20
0.0
 30
0.0
  9
$PUCSXDIR
 10
1.0
 20
0.0
 30
0.0
  9
$PUCSYDIR
 10
0.0
 20
1.0
 30
0.0
  9
$PUCSORTHOREF
  2

  9
$PUCSORTHOVIEW
 70
     0
  9
$PUCSORGTOP
 10
0.0
 20
0.0
 30
0.0
  9
$PUCSORGBOTTOM
 10
0.0
 20
0.0
 30
0.0
  9
$PUCSORGLEFT
 10
0.0
 20
0.0
 30
0.0
  9
$PUCSORGRIGHT
 10
0.0
 20
0.0
 30
0.0
  9
$PUCSORGFRONT
 10
0.0
 20
0.0
 30
0.0
  9
$PUCSORGBACK
 10
0.0
 20
0.0
 30
0.0
  9
$USERI1
 70
     0
  9
$USERI2
 70
     0
  9
$USERI3
 70
     0
  9
$USERI4
 70
     0
  9
$USERI5
 70
     0
  9
$USERR1
 40
0.0
  9
$USERR2
 40
0.0
  9
$USERR3
 40
0.0
  9
$USERR4
 40
0.0
  9
$USERR5
 40
0.0
  9
$WORLDVIEW
 70
     1
  9
$SHADEDGE
 70
     3
  9
$SHADEDIF
 70
    70
  9
$TILEMODE
 70
     1
  9
$MAXACTVP
 70
    64
  9
$PINSBASE
 10
0.0
 20
0.0
 30
0.0
  9
$PLIMCHECK
 70
     0
  9
$PEXTMIN
 10
1.0000000000E+20
 20
1.0000000000E+20
 30
1.0000000000E+20
  9
$PEXTMAX
 10
-1.0000000000E+20
 20
-1.0000000000E+20
 30
-1.0000000000E+20
  9
$PLIMMIN
 10
0.0
 20
0.0
  9
$PLIMMAX
 10
420.0
 20
297.0
  9
$UNITMODE
 70
     0
  9
$VISRETAIN
 70
     1
  9
$PLINEGEN
 70
     0
  9
$PSLTSCALE
 70
     1
  9
$TREEDEPTH
 70
  3020
  9
$CMLSTYLE
  2
Standard
  9
$CMLJUST
 70
     0
  9
$CMLSCALE
 40
20.0
  9
$PROXYGRAPHICS
 70
     1
  9
$MEASUREMENT
 70
     1
  9
$CELWEIGHT
370
    -1
  9
$ENDCAPS
280
     0
  9
$JOINSTYLE
280
     0
  9
$LWDISPLAY
290
     1
  9
$INSUNITS
 70
     4
  9
$HYPERLINKBASE
  1

  9
$STYLESHEET
  1

  9
$XEDIT
290
     1
  9
$CEPSNTYPE
380
     0
  9
$PSTYLEMODE
290
     1
  9
$FINGERPRINTGUID
  2
{995c82bf-2a82-46b9-a498-a55aa722d379}
  9
$VERSIONGUID
  2
{FAEB1C32-E019-11D5-929B-00C0DF256EC4}
  9
$EXTNAMES
290
     1
  9
$PSVPSCALE
 40
0.0
  9
$OLESTARTUP
290
     0
  0
ENDSEC
  0
SECTION
  2
CLASSES
  0
CLASS
  1
ACDBDICTIONARYWDFLT
  2
AcDbDictionaryWithDefault
  3
ObjectDBX Classes
 90
        0
280
     0
281
     0
  0
CLASS
  1
VISUALSTYLE
  2
AcDbVisualStyle
  3
ObjectDBX Classes
 90
     4095
280
     0
281
     0
  0
CLASS
  1
MATERIAL
  2
AcDbMaterial
  3
ObjectDBX Classes
 90
     1153
280
     0
281
     0
  0
CLASS
  1
SCALE
  2
AcDbScale
  3
ObjectDBX Classes
 90
     1153
280
     0
281
     0
  0
CLASS
  1
TABLESTYLE
  2
AcDbTableStyle
  3
ObjectDBX Classes
 90
     4095
280
     0
281
     0
  0
CLASS
  1
MLEADERSTYLE
  2
AcDbMLeaderStyle
  3
ACDB_MLEADERSTYLE_CLASS
 90
     4095
280
     0
281
     0
  0
CLASS
  1
SUN
  2
AcDbSun
  3
SCENEOE
 90
     1153
280
     0
281
     0
  0
CLASS
  1
ACDBPLACEHOLDER
  2
AcDbPlaceHolder
  3
ObjectDBX Classes
 90
        0
280
     0
281
     0
  0
CLASS
  1
LAYOUT
  2
AcDbLayout
  3
ObjectDBX Classes
 90
        0
280
     0
281
     0
  0
ENDSEC
  0
SECTION
  2
TABLES
  0
TABLE
  2
VPORT
  5
8
330
0
100
AcDbSymbolTable
 70
     1
  0
VPORT
  5
29
330
8
100
AcDbSymbolTableRecord
100
AcDbViewportTableRecord
  2
*Active
 70
     0
 10
0.0
 20
0.0
 11
1.0
 21
1.0
 12
139.7
 22
107.95
 13
0.0
 23
0.0
 14
10.0
 24
10.0
 15
10.0
 25
10.0
 16
0.0
 26
0.0
 36
1.0
 17
0.0
 27
0.0
 37
0.0
 40
215.9
 41
1.2941176471
 42
50.0
 43
0.0
 44
0.0
 50
0.0
 51
0.0
 71
     0
 72
  2000
 73
     1
 74
     3
 75
     0
 76
     0
 77
     0
 78
     0
281
     0
 65
     1
110
0.0
120
0.0
130
0.0
111
1.0
121
0.0
131
0.0
112
0.0
122
1.0
132
0.0
 79
     0
146
0.0
  0
ENDTAB
  0
TABLE
  2
LTYPE
  5
5
330
0
100
AcDbSymbolTable
 70
     6
  0
LTYPE
  5
14
330
5
100
AcDbSymbolTableRecord
100
AcDbLinetypeTableRecord
  2
ByBlock
 70
     0
  3

 72
    65
 73
     0
 40
0.0
  0
LTYPE
  5
15
330
5
100
AcDbSymbolTableRecord
100
AcDbLinetypeTableRecord
  2
ByLayer
 70
     0
  3

 72
    65
 73
     0
 40
0.0
  0
LTYPE
  5
16
330
5
100
AcDbSymbolTableRecord
100
AcDbLinetypeTableRecord
  2
Continuous
 70
     0
  3
Solid line
 72
    65
 73
     0
 40
0.0
  0
LTYPE
  5
6E
330
5
100
AcDbSymbolTableRecord
100
AcDbLinetypeTableRecord
  2
HIDDEN
 70
     0
  3
Hidden __ __ __ __ __ __ __ __ __ __ __ __ __ __
 72
    65
 73
     2
 40
1.905
 49
1.27
 74
     0
 49
-0.635
 74
     0
  0
LTYPE
  5
6F
330
5
100
AcDbSymbolTableRecord
100
AcDbLinetypeTableRecord
  2
PHANTOM
 70
     0
  3
Phantom ______  __  __  ______  __  __  ______
 72
    65
 73
     6
 40
12.7
 49
6.35
 74
     0
 49
-1.27
 74
     0
 49
1.27
 74
     0
 49
-1.27
 74
     0
 49
1.27
 74
     0
 49
-1.27
 74
     0
  0
LTYPE
  5
70
330
5
100
AcDbSymbolTableRecord
100
AcDbLinetypeTableRecord
  2
CENTER
 70
     0
  3
Center ____ _ ____ _ ____ _ ____ _ ____ _ ____
 72
    65
 73
     4
 40
10.16
 49
6.35
 74
     0
 49
-1.27
 74
     0
 49
1.27
 74
     0
 49
-1.27
 74
     0
  0
LTYPE
  5
71
330
5
100
AcDbSymbolTableRecord
100
AcDbLinetypeTableRecord
  2
CENTERX2
 70
     0
  3
Center (2x) ________  __  ________  __  _____
 72
    65
 73
     4
 40
20.32
 49
12.7
 74
     0
 49
-2.54
 74
     0
 49
2.54
 74
     0
 49
-2.54
 74
     0
  0
LTYPE
  5
72
330
5
100
AcDbSymbolTableRecord
100
AcDbLinetypeTableRecord
  2
DOT2
 70
     0
  3
Dot (.5x) ........................................
 72
    65
 73
     2
 40
0.635
 49
0.0
 74
     0
 49
-0.635
 74
     0
  0
ENDTAB
  0
TABLE
  2
LAYER
  5
2
330
0
100
AcDbSymbolTable
 70
    17
  0
LAYER
  5
10
330
2
100
AcDbSymbolTableRecord
100
AcDbLayerTableRecord
  2
0
 70
     0
 62
     7
  6
Continuous
370
    -3
390
F
  0
LAYER
  5
73
330
2
100
AcDbSymbolTableRecord
100
AcDbLayerTableRecord
  2
FORMAT
 70
     0
 62
     7
  6
Continuous
370
    -3
390
F
  0
LAYER
  5
74
330
2
100
AcDbSymbolTableRecord
100
AcDbLayerTableRecord
  2
YARDIMCI_GEOMETRI
 70
     0
 62
    -6
  6
Continuous
290
     0
370
    -3
390
F
  0
LAYER
  5
75
330
2
100
AcDbSymbolTableRecord
100
AcDbLayerTableRecord
  2
SAYFA_CERCEVESI
 70
     0
 62
     7
  6
Continuous
370
    25
390
F
  0
LAYER
  5
76
330
2
100
AcDbSymbolTableRecord
100
AcDbLayerTableRecord
  2
ANTET
 70
     0
 62
     7
  6
Continuous
370
    -3
390
F
  0
LAYER
  5
77
330
2
100
AcDbSymbolTableRecord
100
AcDbLayerTableRecord
  2
OLCU
 70
     0
 62
   150
  6
Continuous
370
    -3
390
F
  0
LAYER
  5
78
330
2
100
AcDbSymbolTableRecord
100
AcDbLayerTableRecord
  2
METIN
 70
     0
 62
    96
  6
Continuous
370
    -3
390
F
  0
LAYER
  5
79
330
2
100
AcDbSymbolTableRecord
100
AcDbLayerTableRecord
  2
BALON
 70
     0
 62
     5
  6
Continuous
370
    -3
390
F
  0
LAYER
  5
7A
330
2
100
AcDbSymbolTableRecord
100
AcDbLayerTableRecord
  2
VURGU
 70
     0
 62
     7
  6
Continuous
370
    -3
390
F
  0
LAYER
  5
7B
330
2
100
AcDbSymbolTableRecord
100
AcDbLayerTableRecord
  2
SILIK
 70
     0
 62
     7
  6
Continuous
370
    -3
390
F
  0
LAYER
  5
7C
330
2
100
AcDbSymbolTableRecord
100
AcDbLayerTableRecord
  2
MODEL
 70
     0
 62
     7
  6
Continuous
370
    -3
390
F
  0
LAYER
  5
7D
330
2
100
AcDbSymbolTableRecord
100
AcDbLayerTableRecord
  2
DETAYLANDıRMA
 70
     0
 62
   190
  6
Continuous
370
    -3
390
F
  0
LAYER
  5
7E
330
2
100
AcDbSymbolTableRecord
100
AcDbLayerTableRecord
  2
TOLERANS
 70
     0
 62
   230
  6
Continuous
370
    -3
390
F
  0
LAYER
  5
7F
330
2
100
AcDbSymbolTableRecord
100
AcDbLayerTableRecord
  2
MERKEZ_CIZGILERI
 70
     0
 62
    30
  6
Continuous
370
    -3
390
F
  0
LAYER
  5
80
330
2
100
AcDbSymbolTableRecord
100
AcDbLayerTableRecord
  2
KESIT-DETAY_CIZGILERI
 70
     0
 62
     7
  6
Continuous
370
    -3
390
F
  0
LAYER
  5
81
330
2
100
AcDbSymbolTableRecord
100
AcDbLayerTableRecord
  2
\U+041E\U+0421\U+0415\U+0412\U+042B\U+0415
 70
     0
 62
     7
  6
Continuous
370
    -3
390
F
  0
LAYER
  5
82
330
2
100
AcDbSymbolTableRecord
100
AcDbLayerTableRecord
  2
\U+0412\U+041E\U+0414\U+042F\U+041D\U+042B\U+0415_\U+0417\U+041D\U+0410\U+041A\U+0418
 70
     0
 62
    11
  6
Continuous
370
    -3
390
F
  0
ENDTAB
  0
TABLE
  2
STYLE
  5
3
330
0
100
AcDbSymbolTable
 70
     1
  0
STYLE
  5
11
330
3
100
AcDbSymbolTableRecord
100
AcDbTextStyleTableRecord
  2
Standard
 70
     0
 40
0.0
 41
1.0
 50
0.0
 71
     0
 42
3.5
  3
txt
  4

  0
ENDTAB
  0
TABLE
  2
VIEW
  5
6
330
0
100
AcDbSymbolTable
 70
     0
  0
ENDTAB
  0
TABLE
  2
UCS
  5
7
330
0
100
AcDbSymbolTable
 70
     0
  0
ENDTAB
  0
TABLE
  2
APPID
  5
9
330
0
100
AcDbSymbolTable
 70
     1
  0
APPID
  5
12
330
9
100
AcDbSymbolTableRecord
100
AcDbRegAppTableRecord
  2
ACAD
 70
     0
  0
ENDTAB
  0
TABLE
  2
DIMSTYLE
  5
A
330
0
100
AcDbSymbolTable
 70
     1
100
AcDbDimStyleTable
  0
DIMSTYLE
105
27
330
A
100
AcDbSymbolTableRecord
100
AcDbDimStyleTableRecord
  2
ISO-25
 70
     0
 41
2.5
 42
0.625
 43
3.75
 44
1.25
 73
     0
 74
     0
 77
     1
 78
     8
140
2.5
141
2.5
143
0.0393700787
147
0.625
171
     3
172
     1
178
     0
271
     2
272
     2
274
     3
278
    44
283
     0
284
     8
340
11
  0
ENDTAB
  0
TABLE
  2
BLOCK_RECORD
  5
1
330
0
100
AcDbSymbolTable
 70
     3
  0
BLOCK_RECORD
  5
1F
330
1
100
AcDbSymbolTableRecord
100
AcDbBlockTableRecord
  2
*Model_Space
340
22
  0
BLOCK_RECORD
  5
1B
330
1
100
AcDbSymbolTableRecord
100
AcDbBlockTableRecord
  2
*Paper_Space
340
1E
  0
BLOCK_RECORD
  5
23
330
1
100
AcDbSymbolTableRecord
100
AcDbBlockTableRecord
  2
*Paper_Space0
340
26
  0
BLOCK_RECORD
  5
88
330
1
100
AcDbSymbolTableRecord
100
AcDbBlockTableRecord
  2
SW_CENTERMARKSYMBOL_0
340
0
102
{BLKREFS
331
93
102
}
  0
BLOCK_RECORD
  5
B2
330
1
100
AcDbSymbolTableRecord
100
AcDbBlockTableRecord
  2
SW_CENTERMARKSYMBOL_1
340
0
102
{BLKREFS
331
BD
102
}
  0
ENDTAB
  0
ENDSEC
  0
SECTION
  2
BLOCKS
  0
BLOCK
  5
20
330
1F
100
AcDbEntity
  8
0
100
AcDbBlockBegin
  2
*Model_Space
 70
     0
 10
0.0
 20
0.0
 30
0.0
  3
*Model_Space
  1

  0
ENDBLK
  5
21
330
1F
100
AcDbEntity
  8
0
100
AcDbBlockEnd
  0
BLOCK
  5
1C
330
1B
100
AcDbEntity
 67
     1
  8
0
100
AcDbBlockBegin
  2
*Paper_Space
 70
     0
 10
0.0
 20
0.0
 30
0.0
  3
*Paper_Space
  1

  0
ENDBLK
  5
1D
330
1B
100
AcDbEntity
 67
     1
  8
0
100
AcDbBlockEnd
  0
BLOCK
  5
24
330
23
100
AcDbEntity
  8
0
100
AcDbBlockBegin
  2
*Paper_Space0
 70
     0
 10
0.0
 20
0.0
 30
0.0
  3
*Paper_Space0
  1

  0
ENDBLK
  5
25
330
23
100
AcDbEntity
  8
0
100
AcDbBlockEnd
  0
BLOCK
  5
89
330
88
100
AcDbEntity
  8
0
100
AcDbBlockBegin
  2
SW_CENTERMARKSYMBOL_0
 70
     0
 10
0.0
 20
0.0
 30
0.0
  3
SW_CENTERMARKSYMBOL_0
  1

  0
LINE
  5
8B
330
88
100
AcDbEntity
  8
FORMAT
 62
     0
100
AcDbLine
 10
0.0
 20
0.0
 30
0.0
 11
0.0
 21
2.5
 31
0.0
  0
LINE
  5
8C
330
88
100
AcDbEntity
  8
FORMAT
 62
     0
100
AcDbLine
 10
0.0
 20
0.0
 30
0.0
 11
-2.5
 21
0.0
 31
0.0
  0
LINE
  5
8D
330
88
100
AcDbEntity
  8
FORMAT
 62
     0
100
AcDbLine
 10
0.0
 20
0.0
 30
0.0
 11
0.0
 21
-2.5
 31
0.0
  0
LINE
  5
8E
330
88
100
AcDbEntity
  8
FORMAT
 62
     0
100
AcDbLine
 10
0.0
 20
0.0
 30
0.0
 11
2.5
 21
0.0
 31
0.0
  0
LINE
  5
8F
330
88
100
AcDbEntity
  8
FORMAT
 62
     0
100
AcDbLine
 10
0.0
 20
5.0
 30
0.0
 11
0.0
 21
160.0
 31
0.0
  0
LINE
  5
90
330
88
100
AcDbEntity
  8
FORMAT
 62
     0
100
AcDbLine
 10
-5.0
 20
0.0
 30
0.0
 11
-160.0
 21
0.0
 31
0.0
  0
LINE
  5
91
330
88
100
AcDbEntity
  8
FORMAT
 62
     0
100
AcDbLine
 10
0.0
 20
-5.0
 30
0.0
 11
0.0
 21
-160.0
 31
0.0
  0
LINE
  5
92
330
88
100
AcDbEntity
  8
FORMAT
 62
     0
100
AcDbLine
 10
5.0
 20
0.0
 30
0.0
 11
160.0
 21
0.0
 31
0.0
  0
ENDBLK
  5
8A
330
88
100
AcDbEntity
  8
0
100
AcDbBlockEnd
  0
BLOCK
  5
B3
330
B2
100
AcDbEntity
  8
0
100
AcDbBlockBegin
  2
SW_CENTERMARKSYMBOL_1
 70
     0
 10
0.0
 20
0.0
 30
0.0
  3
SW_CENTERMARKSYMBOL_1
  1

  0
LINE
  5
B5
330
B2
100
AcDbEntity
  8
FORMAT
 62
     0
100
AcDbLine
 10
0.0
 20
0.0
 30
0.0
 11
0.0
 21
2.5
 31
0.0
  0
LINE
  5
B6
330
B2
100
AcDbEntity
  8
FORMAT
 62
     0
100
AcDbLine
 10
0.0
 20
0.0
 30
0.0
 11
-2.5
 21
0.0
 31
0.0
  0
LINE
  5
B7
330
B2
100
AcDbEntity
  8
FORMAT
 62
     0
100
AcDbLine
 10
0.0
 20
0.0
 30
0.0
 11
0.0
 21
-2.5
 31
0.0
  0
LINE
  5
B8
330
B2
100
AcDbEntity
  8
FORMAT
 62
     0
100
AcDbLine
 10
0.0
 20
0.0
 30
0.0
 11
2.5
 21
0.0
 31
0.0
  0
LINE
  5
B9
330
B2
100
AcDbEntity
  8
FORMAT
 62
     0
100
AcDbLine
 10
0.0
 20
5.0
 30
0.0
 11
0.0
 21
127.5
 31
0.0
  0
LINE
  5
BA
330
B2
100
AcDbEntity
  8
FORMAT
 62
     0
100
AcDbLine
 10
-5.0
 20
0.0
 30
0.0
 11
-127.5
 21
0.0
 31
0.0
  0
LINE
  5
BB
330
B2
100
AcDbEntity
  8
FORMAT
 62
     0
100
AcDbLine
 10
0.0
 20
-5.0
 30
0.0
 11
0.0
 21
-127.5
 31
0.0
  0
LINE
  5
BC
330
B2
100
AcDbEntity
  8
FORMAT
 62
     0
100
AcDbLine
 10
5.0
 20
0.0
 30
0.0
 11
127.5
 21
0.0
 31
0.0
  0
ENDBLK
  5
B4
330
B2
100
AcDbEntity
  8
0
100
AcDbBlockEnd
  0
ENDSEC
  0
SECTION
  2
ENTITIES
  0
LINE
  5
83
330
1F
100
AcDbEntity
  8
0
  6
Continuous
 62
     7
370
    25
100
AcDbLine
 10
208.2473105966
 20
-15.6137860013
 30
0.0
 11
444.4002566223
 21
-15.6137860013
 31
0.0
  0
LINE
  5
84
330
1F
100
AcDbEntity
  8
0
  6
Continuous
 62
     7
370
    25
100
AcDbLine
 10
444.4002566223
 20
234.3862139987
 30
0.0
 11
208.2972591801
 21
234.3862139987
 31
0.0
  0
CIRCLE
  5
85
330
1F
100
AcDbEntity
  8
0
  6
Continuous
 62
     7
370
    25
100
AcDbCircle
 10
112.4002566223
 20
109.3862139987
 30
0.0
 40
128.9
  0
CIRCLE
  5
86
330
1F
100
AcDbEntity
  8
0
  6
Continuous
 62
     7
370
    25
100
AcDbCircle
 10
112.4002566223
 20
109.3862139987
 30
0.0
 40
157.5
  0
LINE
  5
87
330
1F
100
AcDbEntity
  8
0
  6
Continuous
 62
     7
370
    25
100
AcDbLine
 10
444.4002566223
 20
234.3862139987
 30
0.0
 11
444.4002566223
 21
-15.6137860013
 31
0.0
  0
INSERT
  5
93
330
1F
100
AcDbEntity
  8
FORMAT
100
AcDbBlockReference
  2
SW_CENTERMARKSYMBOL_0
 10
112.4002566223
 20
109.3862139987
 30
0.0
  0
LINE
  5
94
330
1F
100
AcDbEntity
  8
0
  6
Continuous
 62
     7
370
    25
100
AcDbLine
 10
-45.0997433777
 20
-203.6040943582
 30
0.0
 11
-45.0997433777
 21
-915.6040943582
 31
0.0
  0
LINE
  5
95
330
1F
100
AcDbEntity
  8
0
  6
Continuous
 62
     7
370
    25
100
AcDbLine
 10
269.9002566223
 20
-434.661893206
 30
0.0
 11
269.9002566223
 21
-203.6040943582
 31
0.0
  0
LINE
  5
96
330
1F
100
AcDbEntity
  8
0
  6
Continuous
 62
     7
370
    25
100
AcDbLine
 10
269.9002566223
 20
-915.6040943582
 30
0.0
 11
269.9002566223
 21
-684.6040943582
 31
0.0
  0
LINE
  5
97
330
1F
100
AcDbEntity
  8
0
  6
Continuous
 62
     7
370
    25
100
AcDbLine
 10
269.9002566223
 20
-684.6040943582
 30
0.0
 11
444.4002566223
 21
-684.6040943582
 31
0.0
  0
LINE
  5
98
330
1F
100
AcDbEntity
  8
0
  6
Continuous
 62
     7
370
    25
100
AcDbLine
 10
444.4002566223
 20
-434.6040943582
 30
0.0
 11
269.8543741141
 21
-434.6040943582
 31
0.0
  0
LWPOLYLINE
  5
99
330
1F
100
AcDbEntity
  8
0
  6
Continuous
 62
     7
370
    25
100
AcDbPolyline
 90
       47
 70
   128
 43
0.0
 10
269.8543670459
 20
-434.661893206
 10
269.7392369943
 20
-434.806878499
 10
269.0684330283
 20
-435.6538321626
 10
268.0303860004
 20
-436.9684156229
 10
266.6020710707
 20
-438.7862580129
 10
264.7564477469
 20
-441.1508173619
 10
262.5581379567
 20
-443.9920736734
 10
259.9213663232
 20
-447.4379293772
 10
256.9790708861
 20
-451.3369084988
 10
253.7048891935
 20
-455.7495067521
 10
250.2018499351
 20
-460.5686001173
 10
245.8749038956
 20
-466.6831305971
 10
241.3690655702
 20
-473.2808432527
 10
236.6640747112
 20
-480.4815408205
 10
231.9341586305
 20
-488.1400913266
 10
226.4835496567
 20
-497.6839213403
 10
221.3043379041
 20
-507.8464966568
 10
217.9909626434
 20
-515.239406224
 10
214.9931947886
 20
-522.9420351786
 10
212.419347733
 20
-530.923637831
 10
210.7783310196
 20
-537.3129276499
 10
209.5066826656
 20
-543.84313059
 10
208.6364288846
 20
-550.6639684058
 10
208.2410115347
 20
-557.5546304836
 10
208.3348561772
 20
-564.291731892
 10
208.893574057
 20
-570.9931377575
 10
209.9340200836
 20
-577.8094157281
 10
211.3994212472
 20
-584.4955506519
 10
213.8496939281
 20
-592.9306968308
 10
216.802310839
 20
-601.0593584953
 10
220.2339606089
 20
-609.0707615994
 10
223.9605729466
 20
-616.7394965042
 10
229.364569886
 20
-626.6842871355
 10
234.9455619458
 20
-635.9984780316
 10
240.6937631625
 20
-644.916522004
 10
246.298498452
 20
-653.1321070875
 10
250.640573441
 20
-659.2494359687
 10
254.7193154245
 20
-664.8346246161
 10
258.5543792033
 20
-669.966345457
 10
261.9537823448
 20
-674.4300803371
 10
264.3153135808
 20
-677.4894499311
 10
266.3047755444
 20
-680.0422566849
 10
267.9219912131
 20
-682.1022245155
 10
269.0748061877
 20
-683.5624118748
 10
269.691503587
 20
-684.3409628924
 10
269.9002566223
 20
-684.6040943582
 10
269.9002566223
 20
-684.6040943582
  0
LINE
  5
9A
330
1F
100
AcDbEntity
  8
0
  6
Continuous
 62
     7
370
    25
100
AcDbLine
 10
269.9002566223
 20
-915.6040943582
 30
0.0
 11
-45.0997433777
 21
-915.6040943582
 31
0.0
  0
LINE
  5
9B
330
1F
100
AcDbEntity
  8
0
  6
Continuous
 62
     7
370
    25
100
AcDbLine
 10
269.9002566223
 20
-203.6040943582
 30
0.0
 11
-45.0997433777
 21
-203.6040943582
 31
0.0
  0
LINE
  5
9C
330
1F
100
AcDbEntity
  8
0
  6
Continuous
 62
     7
370
    25
100
AcDbLine
 10
444.4002566223
 20
-434.6040943582
 30
0.0
 11
444.4002566223
 21
-684.6040943582
 31
0.0
  0
LINE
  5
9D
330
1F
100
AcDbEntity
  8
0
  6
Continuous
 62
     7
370
    25
100
AcDbLine
 10
269.9002566223
 20
961.0332905095
 30
0.0
 11
269.9002566223
 21
1192.0332905095
 31
0.0
  0
LINE
  5
9E
330
1F
100
AcDbEntity
  8
0
  6
Continuous
 62
     7
370
    25
100
AcDbLine
 10
269.9002566223
 20
480.0332905095
 30
0.0
 11
269.9002566223
 21
711.0905526616
 31
0.0
  0
LINE
  5
9F
330
1F
100
AcDbEntity
  8
0
  6
Continuous
 62
     7
370
    25
100
AcDbLine
 10
-45.0997433777
 20
1192.0332905095
 30
0.0
 11
-45.0997433777
 21
480.0332905095
 31
0.0
  0
LINE
  5
A0
330
1F
100
AcDbEntity
  8
0
  6
Continuous
 62
     7
370
    25
100
AcDbLine
 10
269.8548279939
 20
711.0332905095
 30
0.0
 11
444.4002566223
 21
711.0332905095
 31
0.0
  0
LINE
  5
A1
330
1F
100
AcDbEntity
  8
0
  6
Continuous
 62
     7
370
    25
100
AcDbLine
 10
444.4002566223
 20
961.0332905095
 30
0.0
 11
269.9002566223
 21
961.0332905095
 31
0.0
  0
SPLINE
  5
A2
330
1F
100
AcDbEntity
  8
0
  6
Continuous
 62
     7
370
    25
100
AcDbSpline
210
0.0
220
0.0
230
1.0
 70
     8
 71
     3
 72
    52
 73
    48
 74
     0
 42
0.000000001
 43
0.00000001
 40
0.0
 40
0.0
 40
0.0
 40
0.0
 40
0.0212985066427411
 40
0.0427716407703684
 40
0.0647823421462274
 40
0.0869703207134462
 40
0.1082647978206501
 40
0.1296960844918963
 40
0.1515213496644012
 40
0.1734673978868523
 40
0.2020607305311955
 40
0.2308706191028099
 40
0.2602999345438479
 40
0.2899217064257908
 40
0.3189440404765363
 40
0.3481494213862209
 40
0.3779989986863375
 40
0.3930701009394581
 40
0.4081400741270916
 40
0.4249975585962866
 40
0.4419384950365303
 40
0.4591830696458575
 40
0.4765541060836059
 40
0.4934194398537776
 40
0.5104276831208535
 40
0.527885551992483
 40
0.5454929808534346
 40
0.5652863519364854
 40
0.5852406714084033
 40
0.6056142787883203
 40
0.6261005565995913
 40
0.6553003113363611
 40
0.6847184782928137
 40
0.714749059081395
 40
0.7449763693571301
 40
0.7747538835246516
 40
0.8047461243567431
 40
0.8354957421656466
 40
0.851029785536167
 40
0.8665632981113497
 40
0.8877240413439295
 40
0.9090126874382229
 40
0.9307347597806582
 40
0.9526210528937525
 40
0.9737871959057746
 40
0.995122257078486
 40
1.0
 40
1.0
 40
1.0
 40
1.0
 10
269.900256622315
 20
961.0332905094854
 30
0.0
 10
269.85225238185
 20
960.9728331762274
 30
0.0
 10
269.7558503118333
 20
960.8514228171153
 30
0.0
 10
268.9728555417814
 20
959.8635340078873
 30
0.0
 10
267.7168307620582
 20
958.2725928885997
 30
0.0
 10
265.9772624280047
 20
956.056015591839
 30
0.0
 10
263.8276568292259
 20
953.2944961733441
 30
0.0
 10
261.3106720545529
 20
950.0279053413359
 30
0.0
 10
258.4249320924622
 20
946.2345044256658
 30
0.0
 10
254.8883134483197
 20
941.5113178290649
 30
0.0
 10
250.6526124506801
 20
935.7299680753404
 30
0.0
 10
245.6808905529913
 20
928.7250709360713
 30
0.0
 10
240.4143137848728
 20
920.9952415749761
 30
0.0
 10
235.0127165806934
 20
912.6343355185365
 30
0.0
 10
229.6300534110057
 20
903.7099246538809
 30
0.0
 10
224.3796983070835
 20
894.1860705601482
 30
0.0
 10
220.2302058773568
 20
885.6701090861936
 30
0.0
 10
217.1553880288033
 20
878.4696979732064
 30
0.0
 10
214.9317270625078
 20
872.6649248981624
 30
0.0
 10
212.8672775067867
 20
866.4522840938571
 30
0.0
 10
211.0440523882046
 20
859.778363463131
 30
0.0
 10
209.6047269723959
 20
852.8694705209223
 30
0.0
 10
208.6336078234802
 20
845.8363982558978
 30
0.0
 10
208.171359100793
 20
838.7532349743655
 30
0.0
 10
208.2309589961827
 20
831.6340612427518
 30
0.0
 10
208.8279210755788
 20
824.4506868672693
 30
0.0
 10
209.9991008067818
 20
816.9891758414161
 30
0.0
 10
211.7667598723621
 20
809.3622402349836
 30
0.0
 10
214.1295311859306
 20
801.610195115477
 30
0.0
 10
216.9413571753138
 20
794.0423890105477
 30
0.0
 10
220.5608090787232
 20
785.6551794030345
 30
0.0
 10
225.0346036406407
 20
776.6367641477578
 30
0.0
 10
230.3459015050074
 20
767.1220303586072
 30
0.0
 10
235.8508407509487
 20
758.0959990839465
 30
0.0
 10
241.3611820668008
 20
749.6520178654988
 30
0.0
 10
246.7198337586852
 20
741.8535405644311
 30
0.0
 10
251.8372024876116
 20
734.6985784595781
 30
0.0
 10
255.8136305126779
 20
729.3129137186395
 30
0.0
 10
258.7605876746839
 20
725.393077410008
 30
0.0
 10
261.0767282086343
 20
722.3461462324202
 30
0.0
 10
263.3948441779896
 20
719.3312297911375
 30
0.0
 10
265.5948829922976
 20
716.5000319840407
 30
0.0
 10
267.4005452126477
 20
714.1958508953908
 30
0.0
 10
268.7560873400655
 20
712.4771503975741
 30
0.0
 10
269.5810480129102
 20
711.4354429846901
 30
0.0
 10
269.9439487575861
 20
710.9782238355956
 30
0.0
 10
269.8688042373288
 20
711.0729295835479
 30
0.0
 10
269.8548211605677
 20
711.0905526615687
 30
0.0
  0
LINE
  5
A3
330
1F
100
AcDbEntity
  8
0
  6
Continuous
 62
     7
370
    25
100
AcDbLine
 10
-45.0997433777
 20
1192.0332905095
 30
0.0
 11
269.9002566223
 21
1192.0332905095
 31
0.0
  0
LINE
  5
A4
330
1F
100
AcDbEntity
  8
0
  6
Continuous
 62
     7
370
    25
100
AcDbLine
 10
-45.0997433777
 20
480.0332905095
 30
0.0
 11
269.9002566223
 21
480.0332905095
 31
0.0
  0
LINE
  5
A5
330
1F
100
AcDbEntity
  8
0
  6
Continuous
 62
     7
370
    25
100
AcDbLine
 10
444.4002566223
 20
961.0332905095
 30
0.0
 11
444.4002566223
 21
711.0332905095
 31
0.0
  0
LINE
  5
A6
330
1F
100
AcDbEntity
  8
0
  6
Continuous
 62
     7
370
    25
100
AcDbLine
 10
692.5066010967
 20
-48.1137860013
 30
0.0
 11
1404.5066010967
 21
-48.1137860013
 31
0.0
  0
LINE
  5
A7
330
1F
100
AcDbEntity
  8
0
  6
Continuous
 62
     7
370
    25
100
AcDbLine
 10
1404.5066010967
 20
266.8862139987
 30
0.0
 11
692.5066010967
 21
266.8862139987
 31
0.0
  0
LINE
  5
A8
330
1F
100
AcDbEntity
  8
0
  6
Continuous
 62
     7
370
    25
100
AcDbLine
 10
1404.5066010967
 20
266.8862139987
 30
0.0
 11
1404.5066010967
 21
-48.1137860013
 31
0.0
  0
LINE
  5
A9
330
1F
100
AcDbEntity
  8
0
  6
Continuous
 62
     7
370
    25
100
AcDbLine
 10
692.5066010967
 20
266.8862139987
 30
0.0
 11
692.5066010967
 21
-48.1137860013
 31
0.0
  0
LINE
  5
AA
330
1F
100
AcDbEntity
  8
0
  6
Continuous
 62
     7
370
    25
100
AcDbLine
 10
-315.1198647161
 20
266.8862139987
 30
0.0
 11
-1027.1198647161
 21
266.8862139987
 31
0.0
  0
LINE
  5
AB
330
1F
100
AcDbEntity
  8
0
  6
Continuous
 62
     7
370
    25
100
AcDbLine
 10
-1027.1198647161
 20
-48.1137860013
 30
0.0
 11
-315.1198647161
 21
-48.1137860013
 31
0.0
  0
CIRCLE
  5
AC
330
1F
100
AcDbEntity
  8
0
  6
Continuous
 62
     7
370
    25
100
AcDbCircle
 10
-671.1198647161
 20
109.3862139987
 30
0.0
 40
102.3000000000001
  0
CIRCLE
  5
AD
330
1F
100
AcDbEntity
  8
0
  6
Continuous
 62
     7
370
    25
100
AcDbCircle
 10
-671.1198647161
 20
109.3862139987
 30
0.0
 40
125.0
  0
LINE
  5
AE
330
1F
100
AcDbEntity
  8
0
  6
Continuous
 62
     7
370
    25
100
AcDbLine
 10
-1027.1198647161
 20
109.3862139987
 30
0.0
 11
-1027.1198647161
 21
266.8862139987
 31
0.0
  0
LINE
  5
AF
330
1F
100
AcDbEntity
  8
0
  6
Continuous
 62
     7
370
    25
100
AcDbLine
 10
-1027.1198647161
 20
-48.1137860013
 30
0.0
 11
-1027.1198647161
 21
109.3862139987
 31
0.0
  0
LINE
  5
B0
330
1F
100
AcDbEntity
  8
0
  6
Continuous
 62
     7
370
    25
100
AcDbLine
 10
-315.1198647161
 20
109.3862139987
 30
0.0
 11
-315.1198647161
 21
266.8862139987
 31
0.0
  0
LINE
  5
B1
330
1F
100
AcDbEntity
  8
0
  6
Continuous
 62
     7
370
    25
100
AcDbLine
 10
-315.1198647161
 20
-48.1137860013
 30
0.0
 11
-315.1198647161
 21
109.3862139987
 31
0.0
  0
INSERT
  5
BD
330
1F
100
AcDbEntity
  8
FORMAT
100
AcDbBlockReference
  2
SW_CENTERMARKSYMBOL_1
 10
-671.1198647161
 20
109.3862139987
 30
0.0
  0
LINE
  5
BE
330
1F
100
AcDbEntity
  8
0
  6
Continuous
 62
     7
370
    25
100
AcDbLine
 10
1020.6155900709
 20
-456.7138257721
 30
0.0
 11
815.1265347596
 21
-338.0875191728
 31
0.0
  0
LINE
  5
BF
330
1F
100
AcDbEntity
  8
0
  6
Continuous
 62
     7
370
    25
100
AcDbLine
 10
1318.5865629644
 20
-628.7288069817
 30
0.0
 11
1270.6359085631
 21
-601.0474834093
 31
0.0
  0
LINE
  5
C0
330
1F
100
AcDbEntity
  8
0
  6
Continuous
 62
     7
370
    25
100
AcDbLine
 10
657.6393343694
 20
-610.8929108227
 30
0.0
 11
1161.0993625742
 21
-901.5341986316
 31
0.0
  0
LINE
  5
C1
330
1F
100
AcDbEntity
  8
0
  6
Continuous
 62
     7
370
    25
100
AcDbLine
 10
1142.7662360334
 20
-674.8650741092
 30
0.0
 11
1285.3673208106
 21
-592.5432201372
 31
0.0
  0
LINE
  5
C2
330
1F
100
AcDbEntity
  8
0
  6
Continuous
 62
     7
370
    25
100
AcDbLine
 10
1160.3774792311
 20
-376.031004542
 30
0.0
 11
1017.7715267318
 21
-458.3556685901
 31
0.0
  0
SPLINE
  5
C3
330
1F
100
AcDbEntity
  8
0
  6
Continuous
 62
     7
370
    25
100
AcDbSpline
210
0.0
220
0.0
230
1.0
 70
     8
 71
     3
 72
    41
 73
    37
 74
     0
 42
0.000000001
 43
0.00000001
 40
0.0
 40
0.0
 40
0.0
 40
0.0
 40
0.0282974115295252
 40
0.0570657437685808
 40
0.0860704761415563
 40
0.1155496490740333
 40
0.1438417069218529
 40
0.172491511290036
 40
0.2013127940506779
 40
0.2304705358780448
 40
0.268459927078547
 40
0.3070147811428175
 40
0.3458371140931575
 40
0.3851929000755864
 40
0.4237522668873997
 40
0.4628397138361102
 40
0.5022133229533566
 40
0.522208396018094
 40
0.5422590587089596
 40
0.5646560832224115
 40
0.5872968081863604
 40
0.6100753136367963
 40
0.6331546484943354
 40
0.6555621016685232
 40
0.6783578197917423
 40
0.701354128863906
 40
0.7247475370879045
 40
0.7510452102763947
 40
0.7777453734456649
 40
0.804625283396154
 40
0.8318435594780262
 40
0.8706386492093144
 40
0.9097239236266519
 40
0.9496228572607974
 40
0.9897831676830608
 40
1.0
 40
1.0
 40
1.0
 40
1.0
 10
1011.093919055465
 20
-504.4932131072289
 30
0.0
 10
1011.102729153842
 20
-506.9469380621144
 30
0.0
 10
1011.120495966755
 20
-511.8952224452271
 30
0.0
 10
1011.265806360007
 20
-519.8887893763549
 30
0.0
 10
1011.503037170468
 20
-528.2999156521398
 30
0.0
 10
1011.839408432338
 20
-536.942222131364
 30
0.0
 10
1012.272978826553
 20
-545.7352100340021
 30
0.0
 10
1012.803342234714
 20
-554.5819024664264
 30
0.0
 10
1013.445495954548
 20
-563.5795491882332
 30
0.0
 10
1014.282992066809
 20
-573.5563161992595
 30
0.0
 10
1015.378808555234
 20
-584.4928199612038
 30
0.0
 10
1016.817365153898
 20
-596.2698072406656
 30
0.0
 10
1018.560346112437
 20
-607.9465956321549
 30
0.0
 10
1020.647934850629
 20
-619.3124096701771
 30
0.0
 10
1023.158433717691
 20
-630.3253051836583
 30
0.0
 10
1026.182158840418
 20
-640.8897790658726
 30
0.0
 10
1029.271195525661
 20
-649.3200160149744
 30
0.0
 10
1032.17790784321
 20
-655.7697360578533
 30
0.0
 10
1034.709862684333
 20
-660.6331183513482
 30
0.0
 10
1037.650383374862
 20
-665.4426990742346
 30
0.0
 10
1041.081450927735
 20
-670.1222484017395
 30
0.0
 10
1044.950230133366
 20
-674.4593882572368
 30
0.0
 10
1049.228365795412
 20
-678.3344214959078
 30
0.0
 10
1053.923677358006
 20
-681.7136934948052
 30
0.0
 10
1059.001628695122
 20
-684.5559267333444
 30
0.0
 10
1064.504343367815
 20
-686.8675414434448
 30
0.0
 10
1070.591983688952
 20
-688.6850159797551
 30
0.0
 10
1077.251385455588
 20
-689.927734899671
 30
0.0
 10
1084.404395219325
 20
-690.5298569091331
 30
0.0
 10
1091.743830960512
 20
-690.4851261341609
 30
0.0
 10
1100.217093637652
 20
-689.7444223892353
 30
0.0
 10
1109.755061984262
 20
-688.0355958017145
 30
0.0
 10
1120.248545958208
 20
-685.1224622174436
 30
0.0
 10
1130.485799459594
 20
-681.1659829537161
 30
0.0
 10
1138.039085113377
 20
-677.6787034101874
 30
0.0
 10
1141.928498770411
 20
-675.2709957876455
 30
0.0
 10
1142.717298709917
 20
-674.782696060623
 30
0.0
  0
SPLINE
  5
C4
330
1F
100
AcDbEntity
  8
0
  6
Continuous
 62
     7
370
    25
100
AcDbSpline
210
0.0
220
0.0
230
1.0
 70
     8
 71
     3
 72
    18
 73
    14
 74
     0
 42
0.000000001
 43
0.00000001
 40
0.0
 40
0.0
 40
0.0
 40
0.0
 40
0.0808916515412992
 40
0.1835423841909894
 40
0.2874582461620695
 40
0.3920589532790971
 40
0.4981426249723211
 40
0.5828274408210596
 40
0.66861908126475
 40
0.7550021830078806
 40
0.8426328224283133
 40
0.9210516904888565
 40
1.0
 40
1.0
 40
1.0
 40
1.0
 10
1017.837062659243
 20
-458.4672807939987
 30
0.0
 10
1017.431719509501
 20
-458.6901469900857
 30
0.0
 10
1016.511999776977
 20
-459.195828258869
 30
0.0
 10
1015.377787286893
 20
-460.9740156082825
 30
0.0
 10
1014.29907626394
 20
-463.5548334302001
 30
0.0
 10
1013.394482500692
 20
-467.0307855274198
 30
0.0
 10
1012.693953653124
 20
-471.1080143649053
 30
0.0
 10
1012.159108246082
 20
-475.6409516168767
 30
0.0
 10
1011.75827367446
 20
-480.4477181181428
 30
0.0
 10
1011.447764346417
 20
-485.9105563446537
 30
0.0
 10
1011.239596907797
 20
-491.8015436701896
 30
0.0
 10
1011.116060579217
 20
-497.9925198435984
 30
0.0
 10
1011.101316098679
 20
-502.3214606328166
 30
0.0
 10
1011.093919055465
 20
-504.4932131072289
 30
0.0
  0
LWPOLYLINE
  5
C5
330
1F
100
AcDbEntity
  8
0
  6
Continuous
 62
     7
370
    25
100
AcDbPolyline
 90
      134
 70
   128
 43
0.0
 10
847.7522526014
 20
-410.1980761917
 10
847.6279983531
 20
-404.196501161
 10
847.2555128682
 20
-398.3517788923
 10
846.6356273074
 20
-392.6769512464
 10
845.7697248777
 20
-387.1846809828
 10
844.6597377462
 20
-381.887223504
 10
843.308142728
 20
-376.7963995092
 10
841.7179557602
 20
-371.9235686172
 10
839.8927251717
 20
-367.2796040192
 10
837.8365237657
 20
-362.874868216
 10
835.5539397316
 20
-358.7191898957
 10
833.0500664067
 20
-354.8218420015
 10
830.3304909117
 20
-351.1915210406
 10
827.4012816828
 20
-347.8363276784
 10
824.2689749312
 20
-344.7637486635
 10
820.9405600582
 20
-341.9806401209
 10
817.4234640587
 20
-339.4932122541
 10
813.7255349492
 20
-337.3070154874
 10
809.8550242555
 20
-335.4269280806
 10
805.8205686004
 20
-333.8571452438
 10
801.6311704322
 20
-332.6011697763
 10
797.2961779361
 20
-331.6618042506
 10
792.8252641756
 20
-331.0411447584
 10
788.2284055075
 20
-330.7405762338
 10
783.515859321
 20
-330.7607693627
 10
778.6981411493
 20
-331.1016790863
 10
773.7860012055
 20
-331.7625447017
 10
768.7904003946
 20
-332.7418915593
 10
763.7224858553
 20
-334.0375343533
 10
758.5935660867
 20
-335.6465819981
 10
753.4150857144
 20
-337.5654440791
 10
748.1985999528
 20
-339.7898388647
 10
742.9557488216
 20
-342.3148028604
 10
737.6982311716
 20
-345.1347018842
 10
732.4377785807
 20
-348.2432436387
 10
727.1861291753
 20
-351.6334917518
 10
721.9550014389
 20
-355.2978812542
 10
716.756068063
 20
-359.2282354601
 10
711.6009299008
 20
-363.4157842124
 10
706.5010900814
 20
-367.8511834524
 10
701.4679283415
 20
-372.5245360701
 10
696.512675633
 20
-377.4254139885
 10
691.6463890624
 20
-382.5428814324
 10
686.8799272178
 20
-387.865519331
 10
682.2239259394
 20
-393.3814507979
 10
677.6887745866
 20
-399.078367633
 10
673.2845928555
 20
-404.9435577874
 10
669.0212081977
 20
-410.9639337284
 10
664.9081338913
 20
-417.1260616431
 10
660.9545478136
 20
-423.4161914147
 10
657.1692719609
 20
-429.8202873039
 10
653.5607527638
 20
-436.3240592688
 10
650.1370422397
 20
-442.912994851
 10
646.9057800255
 20
-449.5723915588
 10
643.8741763306
 20
-456.287389674
 10
641.0489958484
 20
-463.0430054103
 10
638.4365426613
 20
-469.8241643473
 10
636.0426461737
 20
-476.6157350679
 10
633.8726481049
 20
-483.402562922
 10
631.9313905691
 20
-490.169503843
 10
630.2232052708
 20
-496.9014581396
 10
628.7519038395
 20
-503.5834041894
 10
627.5207693239
 20
-510.2004319581
 10
626.5325488666
 20
-516.7377762692
 10
625.7894475737
 20
-523.1808497513
 10
625.2931235949
 20
-529.5152753882
 10
625.0446844231
 20
-535.7269185993
 10
625.0446844231
 20
-541.8019187797
 10
625.2931235949
 20
-547.7267202285
 10
625.7894475737
 20
-553.4881023971
 10
626.5325488666
 20
-559.0732093888
 10
627.5207693239
 20
-564.4695786462
 10
628.7519038395
 20
-569.6651687594
 10
630.2232052708
 20
-574.648386335
 10
631.9313905691
 20
-579.4081118663
 10
633.8726481049
 20
-583.9337245444
 10
636.0426461737
 20
-588.2151259578
 10
638.4365426613
 20
-592.2427626258
 10
641.0489958484
 20
-596.0076473161
 10
643.8741763306
 20
-599.5013790988
 10
646.9057800255
 20
-602.7161620922
 10
650.1370422397
 20
-605.6448228584
 10
653.5607527638
 20
-608.2808264099
 10
657.1692719609
 20
-610.6182907923
 10
660.9545478136
 20
-612.6520002083
 10
664.9081338913
 20
-614.3774166571
 10
669.0212081977
 20
-615.7906900599
 10
673.2845928555
 20
-616.8886668512
 10
677.6887745866
 20
-617.6688970153
 10
682.2239259394
 20
-618.1296395537
 10
686.8799272178
 20
-618.2698663696
 10
691.6463890624
 20
-618.0892645622
 10
696.512675633
 20
-617.5882371247
 10
701.4679283415
 20
-616.7679020452
 10
706.5010900814
 20
-615.6300898122
 10
711.6009299008
 20
-614.1773393294
 10
716.756068063
 20
-612.4128922515
 10
721.9550014389
 20
-610.3406857497
 10
727.1861291753
 20
-607.965343727
 10
732.4377785807
 20
-605.2921665002
 10
737.6982311716
 20
-602.3271189732
 10
742.9557488216
 20
-599.0768173262
 10
748.1985999528
 20
-595.5485142532
 10
753.4150857144
 20
-591.750082778
 10
758.5935660867
 20
-587.6899986865
 10
763.7224858553
 20
-583.3773216139
 10
768.7904003946
 20
-578.8216748291
 10
773.7860012055
 20
-574.0332237614
 10
778.6981411493
 20
-569.0226533176
 10
783.515859321
 20
-563.8011440396
 10
788.2284055075
 20
-558.3803471562
 10
792.8252641756
 20
-552.7723585851
 10
797.2961779361
 20
-546.9896919415
 10
801.6311704322
 20
-541.0452506158
 10
805.8205686004
 20
-534.9522989812
 10
809.8550242555
 20
-528.7244327952
 10
813.7255349492
 20
-522.3755488624
 10
817.4234640587
 20
-515.9198140255
 10
820.9405600582
 20
-509.3716335533
 10
824.2689749312
 20
-502.7456189969
 10
827.4012816828
 20
-496.0565555856
 10
830.3304909117
 20
-489.3193692355
 10
833.0500664067
 20
-482.5490932438
 10
835.5539397316
 20
-475.7608347435
 10
837.8365237657
 20
-468.9697409937
 10
839.8927251717
 20
-462.1909655801
 10
841.7179557602
 20
-455.4396346012
 10
843.308142728
 20
-448.7308129164
 10
844.6597377462
 20
-442.0794705301
 10
845.7697248777
 20
-435.5004491881
 10
846.6356273074
 20
-429.0084292595
 10
847.2555128682
 20
-422.6178969793
 10
847.6279983531
 20
-416.3431121238
 10
847.7522526014
 20
-410.1980761917
  0
LWPOLYLINE
  5
C6
330
1F
100
AcDbEntity
  8
0
  6
Continuous
 62
     7
370
    25
100
AcDbPolyline
 90
       18
 70
   128
 43
0.0
 10
1351.2122808062
 20
-700.8393640006
 10
1351.088026558
 20
-694.8377889699
 10
1350.715541073
 20
-688.9930667012
 10
1350.0956555122
 20
-683.3182390553
 10
1349.2297530826
 20
-677.8259687917
 10
1348.119765951
 20
-672.5285113129
 10
1346.7681709328
 20
-667.437687318
 10
1345.177983965
 20
-662.5648564261
 10
1343.3527533766
 20
-657.920891828
 10
1341.2965519706
 20
-653.5161560249
 10
1339.0139679364
 20
-649.3604777046
 10
1336.5100946115
 20
-645.4631298104
 10
1333.7905191165
 20
-641.8328088495
 10
1330.8613098876
 20
-638.4776154873
 10
1327.7290031361
 20
-635.4050364723
 10
1324.400588263
 20
-632.6219279298
 10
1320.8834922635
 20
-630.134500063
 10
1318.5865629644
 20
-628.7288069817
  0
LWPOLYLINE
  5
C7
330
1F
100
AcDbEntity
  8
0
  6
Continuous
 62
     7
370
    25
100
AcDbPolyline
 90
       51
 70
   128
 43
0.0
 10
1161.0993625742
 20
-901.5341986316
 10
1164.4145760184
 20
-903.2932880172
 10
1168.3681620962
 20
-905.018704466
 10
1172.4812364025
 20
-906.4319778688
 10
1176.7446210603
 20
-907.5299546601
 10
1181.1488027914
 20
-908.3101848242
 10
1185.6839541442
 20
-908.7709273626
 10
1190.3399554226
 20
-908.9111541785
 10
1195.1064172672
 20
-908.7305523711
 10
1199.9727038378
 20
-908.2295249336
 10
1204.9279565463
 20
-907.4091898541
 10
1209.9611182862
 20
-906.271377621
 10
1215.0609581057
 20
-904.8186271383
 10
1220.2160962679
 20
-903.0541800604
 10
1225.4150296438
 20
-900.9819735586
 10
1230.6461573801
 20
-898.6066315359
 10
1235.8978067855
 20
-895.9334543091
 10
1241.1582593765
 20
-892.9684067821
 10
1246.4157770264
 20
-889.7181051351
 10
1251.6586281576
 20
-886.1898020621
 10
1256.8751139192
 20
-882.3913705869
 10
1262.0535942916
 20
-878.3312864954
 10
1267.1825140601
 20
-874.0186094228
 10
1272.2504285994
 20
-869.462962638
 10
1277.2460294103
 20
-864.6745115703
 10
1282.1581693541
 20
-859.6639411265
 10
1286.9758875258
 20
-854.4424318485
 10
1291.6884337124
 20
-849.0216349651
 10
1296.2852923805
 20
-843.413646394
 10
1300.7562061409
 20
-837.6309797503
 10
1305.091198637
 20
-831.6865384247
 10
1309.2805968053
 20
-825.5935867901
 10
1313.3150524603
 20
-819.3657206041
 10
1317.185563154
 20
-813.0168366713
 10
1320.8834922635
 20
-806.5611018344
 10
1324.400588263
 20
-800.0129213622
 10
1327.7290031361
 20
-793.3869068057
 10
1330.8613098876
 20
-786.6978433945
 10
1333.7905191165
 20
-779.9606570444
 10
1336.5100946115
 20
-773.1903810527
 10
1339.0139679364
 20
-766.4021225524
 10
1341.2965519706
 20
-759.6110288026
 10
1343.3527533766
 20
-752.832253389
 10
1345.177983965
 20
-746.0809224101
 10
1346.7681709328
 20
-739.3721007253
 10
1348.119765951
 20
-732.720758339
 10
1349.2297530826
 20
-726.141736997
 10
1350.0956555122
 20
-719.6497170683
 10
1350.715541073
 20
-713.2591847881
 10
1351.088026558
 20
-706.9843999327
 10
1351.2122808062
 20
-700.8393640006
  0
LWPOLYLINE
  5
C8
330
1F
100
AcDbEntity
  8
0
  6
Continuous
 62
     7
370
    25
100
AcDbPolyline
 90
      121
 70
   128
 43
0.0
 10
827.5289986594
 20
-421.8727121908
 10
827.4040861463
 20
-416.4363527921
 10
827.0296909836
 20
-411.1591149945
 10
826.4068393622
 20
-406.0554633399
 10
825.5372384753
 20
-401.1393865827
 10
824.4232718384
 20
-396.4243593477
 10
823.0679927566
 20
-391.9233051967
 10
821.4751159558
 20
-387.6485612063
 10
819.6490074004
 20
-383.6118441527
 10
817.5946723272
 20
-379.8242183967
 10
815.3177415257
 20
-376.2960655572
 10
812.824455905
 20
-373.0370560559
 10
810.1216493877
 20
-370.0561226114
 10
807.2167301786
 20
-367.361435755
 10
804.1176604593
 20
-364.960381436
 10
800.8329345645
 20
-362.8595407776
 10
797.3715556996
 20
-361.0646720378
 10
793.7430112634
 20
-359.5806948271
 10
789.957246844
 20
-358.411676624
 10
786.0246389586
 20
-357.560821626
 10
781.955966612
 20
-357.0304619676
 10
777.7623817522
 20
-356.8220513278
 10
773.455378704
 20
-356.9361609455
 10
769.0467626633
 20
-357.3724780543
 10
764.5486173402
 20
-358.1298067393
 10
759.9732718384
 20
-359.2060712153
 10
755.3332668619
 20
-360.598321516
 10
750.6413203417
 20
-362.3027415803
 10
745.9102925772
 20
-364.3146597111
 10
741.1531509867
 20
-366.6285613808
 10
736.3829345645
 20
-369.2381043457
 10
731.6127181423
 20
-372.1361360298
 10
726.8555765518
 20
-375.3147131299
 10
722.1245487873
 20
-378.765123387
 10
717.4326022671
 20
-382.4779094665
 10
712.7925972906
 20
-386.4428948797
 10
708.2172517888
 20
-390.6492118772
 10
703.7191064657
 20
-395.0853312366
 10
699.3104904249
 20
-399.739093863
 10
695.0034873767
 20
-404.5977441165
 10
690.809902517
 20
-409.6479647746
 10
686.7412301704
 20
-414.8759135334
 10
682.808622285
 20
-420.2672609488
 10
679.0228578656
 20
-425.8072297122
 10
675.3943134294
 20
-431.4806351544
 10
671.9329345645
 20
-437.2719268654
 10
668.6482086697
 20
-443.1652313171
 10
665.5491389504
 20
-449.1443953718
 10
662.6442197413
 20
-455.1930305562
 10
659.941413224
 20
-461.2945579819
 10
657.4481276033
 20
-467.4322537862
 10
655.1711968018
 20
-473.5892949717
 10
653.1168617286
 20
-479.7488055163
 10
651.2907531732
 20
-485.8939026298
 10
649.6978763723
 20
-492.0077430282
 10
648.3425972906
 20
-498.0735690998
 10
647.2286306537
 20
-504.0747548372
 10
646.3590297668
 20
-509.9948514072
 10
645.7361781454
 20
-515.8176322367
 10
645.3617829826
 20
-521.5271374883
 10
645.2368704695
 20
-527.1077178047
 10
645.3617829826
 20
-532.5440772034
 10
645.7361781454
 20
-537.821315001
 10
646.3590297668
 20
-542.9249666556
 10
647.2286306537
 20
-547.8410434128
 10
648.3425972906
 20
-552.5560706478
 10
649.6978763723
 20
-557.0571247988
 10
651.2907531732
 20
-561.3318687892
 10
653.1168617286
 20
-565.3685858428
 10
655.1711968018
 20
-569.1562115988
 10
657.4481276033
 20
-572.6843644383
 10
659.941413224
 20
-575.9433739396
 10
662.6442197413
 20
-578.9243073841
 10
665.5491389504
 20
-581.6189942405
 10
668.6482086697
 20
-584.0200485595
 10
671.9329345645
 20
-586.1208892179
 10
675.3943134294
 20
-587.9157579577
 10
679.0228578656
 20
-589.3997351684
 10
682.808622285
 20
-590.5687533715
 10
686.7412301704
 20
-591.4196083695
 10
690.809902517
 20
-591.9499680279
 10
695.0034873767
 20
-592.1583786677
 10
699.3104904249
 20
-592.04426905
 10
703.7191064657
 20
-591.6079519412
 10
708.2172517888
 20
-590.8506232561
 10
712.7925972906
 20
-589.7743587802
 10
717.4326022671
 20
-588.3821084794
 10
722.1245487873
 20
-586.6776884152
 10
726.8555765518
 20
-584.6657702843
 10
731.6127181423
 20
-582.3518686147
 10
736.3829345645
 20
-579.7423256498
 10
741.1531509867
 20
-576.8442939656
 10
745.9102925772
 20
-573.6657168656
 10
750.6413203417
 20
-570.2153066085
 10
755.3332668619
 20
-566.502520529
 10
759.9732718384
 20
-562.5375351158
 10
764.5486173402
 20
-558.3312181183
 10
769.0467626633
 20
-553.8950987589
 10
773.455378704
 20
-549.2413361325
 10
777.7623817522
 20
-544.382685879
 10
781.955966612
 20
-539.3324652209
 10
786.0246389586
 20
-534.1045164621
 10
789.957246844
 20
-528.7131690467
 10
793.7430112634
 20
-523.1732002833
 10
797.3715556996
 20
-517.4997948411
 10
800.8329345645
 20
-511.7085031301
 10
804.1176604593
 20
-505.8151986784
 10
807.2167301786
 20
-499.8360346237
 10
810.1216493877
 20
-493.7873994393
 10
812.824455905
 20
-487.6858720136
 10
815.3177415257
 20
-481.5481762092
 10
817.5946723272
 20
-475.3911350238
 10
819.6490074004
 20
-469.2316244792
 10
821.4751159558
 20
-463.0865273657
 10
823.0679927566
 20
-456.9726869673
 10
824.4232718384
 20
-450.9068608956
 10
825.5372384753
 20
-444.9056751583
 10
826.4068393622
 20
-438.9855785883
 10
827.0296909836
 20
-433.1627977587
 10
827.4040861463
 20
-427.4532925072
 10
827.5289986594
 20
-421.8727121908
  0
LWPOLYLINE
  5
C9
330
1F
100
AcDbEntity
  8
0
  6
Continuous
 62
     7
370
    25
100
AcDbPolyline
 90
      108
 70
   128
 43
0.0
 10
1295.2094237362
 20
-526.0463872593
 10
1295.0847433831
 20
-521.0721094874
 10
1294.7111321228
 20
-515.9710262098
 10
1294.0898778708
 20
-510.7607219175
 10
1293.2231222191
 20
-505.4591576086
 10
1292.113853054
 20
-500.0846088736
 10
1290.7658942561
 20
-494.6556028955
 10
1289.1838925187
 20
-489.1908545825
 10
1287.3733013294
 20
-483.709202054
 10
1285.3403621713
 20
-478.2295417021
 10
1283.0920830066
 20
-472.770763051
 10
1280.6362141196
 20
-467.3516836417
 10
1277.9812213988
 20
-461.9909841635
 10
1275.1362571544
 20
-456.707144058
 10
1272.1111285673
 20
-451.5183778166
 10
1268.9162638826
 20
-446.4425721916
 10
1265.5626764607
 20
-441.4972245364
 10
1262.061926812
 20
-436.6993824889
 10
1258.426082746
 20
-432.0655852045
 10
1254.6676777703
 20
-427.6118063425
 10
1250.7996678854
 20
-423.3533990011
 10
1246.8353869227
 20
-419.3050427928
 10
1242.7885005799
 20
-415.48069324
 10
1238.6729593127
 20
-411.8935336678
 10
1234.5029502444
 20
-408.5559297585
 10
1230.29284826
 20
-405.4793869241
 10
1226.0571664533
 20
-402.6745106452
 10
1221.8105060969
 20
-400.1509699113
 10
1217.5675063089
 20
-397.9174638901
 10
1213.3427935885
 20
-395.9816919395
 10
1209.1509313956
 20
-394.3503270666
 10
1205.0063699476
 20
-393.028992924
 10
1200.9233964065
 20
-392.0222444241
 10
1196.9160856278
 20
-391.3335520377
 10
1192.9982516419
 20
-390.96528983
 10
1189.1834000343
 20
-390.9187272772
 10
1185.4846813887
 20
-391.1940248901
 10
1181.9148459546
 20
-391.7902336607
 10
1178.4861996941
 20
-392.7052983339
 10
1175.2105618612
 20
-393.9360644922
 10
1172.0992242582
 20
-395.4782894296
 10
1169.1629123103
 20
-397.3266567775
 10
1166.4117480931
 20
-399.4747948305
 10
1163.8552154395
 20
-401.9152985118
 10
1161.5021272473
 20
-404.6397548996
 10
1159.3605950989
 20
-407.6387722284
 10
1157.4380012992
 20
-410.9020122641
 10
1155.7409734274
 20
-414.4182259424
 10
1154.2753614902
 20
-418.1752921462
 10
1153.0462177554
 20
-422.16025949
 10
1152.0577793362
 20
-426.359390966
 10
1151.3134535845
 20
-430.7582112978
 10
1150.8158063455
 20
-435.3415568407
 10
1150.5665531122
 20
-440.0936278531
 10
1150.5665531122
 20
-444.9980429616
 10
1150.8158063455
 20
-450.0378956315
 10
1151.3134535845
 20
-455.1958124465
 10
1152.0577793362
 20
-460.4540129988
 10
1153.0462177554
 20
-465.7943711818
 10
1154.2753614902
 20
-471.1984776746
 10
1155.7409734274
 20
-476.6477034026
 10
1157.4380012992
 20
-482.1232637557
 10
1159.3605950989
 20
-487.6062833432
 10
1161.5021272473
 20
-493.0778610606
 10
1163.8552154395
 20
-498.5191352461
 10
1166.4117480931
 20
-503.9113487003
 10
1169.1629123103
 20
-509.2359133464
 10
1172.0992242582
 20
-514.474474307
 10
1175.2105618612
 20
-519.6089731772
 10
1178.4861996941
 20
-524.6217102757
 10
1181.9148459546
 20
-529.4954056595
 10
1185.4846813887
 20
-534.2132586907
 10
1189.1834000343
 20
-538.7590059527
 10
1192.9982516419
 20
-543.1169773129
 10
1196.9160856278
 20
-547.2721499413
 10
1200.9233964065
 20
-551.2102000969
 10
1205.0063699476
 20
-554.9175525052
 10
1209.1509313956
 20
-558.3814271544
 10
1213.3427935885
 20
-561.5898833509
 10
1217.5675063089
 20
-564.5318608815
 10
1221.8105060969
 20
-567.1972181403
 10
1226.0571664533
 20
-569.5767670887
 10
1230.29284826
 20
-571.6623049283
 10
1234.5029502444
 20
-573.4466423784
 10
1238.6729593127
 20
-574.923628458
 10
1242.7885005799
 20
-576.0881716901
 10
1246.8353869227
 20
-576.936257653
 10
1250.7996678854
 20
-577.4649628187
 10
1254.6676777703
 20
-577.6724646309
 10
1258.426082746
 20
-577.558047788
 10
1262.061926812
 20
-577.1221067083
 10
1265.5626764607
 20
-576.3661441713
 10
1268.9162638826
 20
-575.2927661363
 10
1272.1111285673
 20
-573.9056727598
 10
1275.1362571544
 20
-572.20964564
 10
1277.9812213988
 20
-570.2105313338
 10
1280.6362141196
 20
-567.9152212023
 10
1283.0920830066
 20
-565.331627655
 10
1285.3403621713
 20
-562.4686568741
 10
1287.3733013294
 20
-559.336178113
 10
1289.1838925187
 20
-555.9449896749
 10
1290.7658942561
 20
-552.3067816889
 10
1292.113853054
 20
-548.4340958115
 10
1293.2231222191
 20
-544.3402819934
 10
1294.0898778708
 20
-540.0394524588
 10
1294.7111321228
 20
-535.546433058
 10
1295.0847433831
 20
-530.8767121597
 10
1295.2094237362
 20
-526.0463872593
  0
LWPOLYLINE
  5
CA
330
1F
100
AcDbEntity
  8
0
  6
Continuous
 62
     7
370
    25
100
AcDbPolyline
 90
      119
 70
   128
 43
0.0
 10
1311.2607476692
 20
-535.3126193285
 10
1311.1354744819
 20
-529.8080409249
 10
1310.7600100206
 20
-524.1744285035
 10
1310.1354185801
 20
-518.4277511508
 10
1309.2634706327
 20
-512.5842984481
 10
1308.1466378095
 20
-506.6606342971
 10
1306.7880858946
 20
-500.6735499672
 10
1305.1916658509
 20
-494.6400164995
 10
1303.3619029046
 20
-488.5771366002
 10
1301.3039837174
 20
-482.5020961611
 10
1299.0237416849
 20
-476.4321155442
 10
1296.5276404009
 20
-470.3844007692
 10
1293.8227553356
 20
-464.3760947406
 10
1290.9167537797
 20
-458.4242286546
 10
1287.8178731103
 20
-452.5456737223
 10
1284.5348974413
 20
-446.7570933465
 10
1281.077132724
 20
-441.0748958869
 10
1277.4543803681
 20
-435.5151881497
 10
1273.6769094587
 20
-430.0937297306
 10
1269.7554276477
 20
-424.8258883424
 10
1265.7010508011
 20
-419.7265962538
 10
1261.5252714907
 20
-414.8103079624
 10
1257.2399264166
 20
-410.0909592214
 10
1252.8571628551
 20
-405.5819275375
 10
1248.3894042256
 20
-401.2959942511
 10
1243.8493148753
 20
-397.2453083055
 10
1239.2497641808
 20
-393.4413518102
 10
1234.6037900682
 20
-389.8949074933
 10
1229.924562056
 20
-386.6160281363
 10
1225.2253439243
 20
-383.6140080792
 10
1220.5194561174
 20
-380.8973568738
 10
1215.8202379857
 20
-378.4737751633
 10
1211.1410099735
 20
-376.3501328532
 10
1206.4950358609
 20
-374.5324496385
 10
1201.8954851664
 20
-373.0258779396
 10
1197.3553958161
 20
-371.8346882978
 10
1192.8876371866
 20
-370.9622572695
 10
1188.504873625
 20
-370.4110578552
 10
1184.219528551
 20
-370.1826524896
 10
1180.0437492406
 20
-370.2776886125
 10
1175.989372394
 20
-370.6958968337
 10
1172.0678905829
 20
-371.4360916965
 10
1168.2904196736
 20
-372.4961750382
 10
1164.6676673177
 20
-373.8731419374
 10
1161.2099026003
 20
-375.5630892317
 10
1157.9269269314
 20
-377.5612265821
 10
1154.8280462619
 20
-379.861890051
 10
1151.922044706
 20
-382.4585581579
 10
1149.2171596408
 20
-385.3438703649
 10
1146.7210583568
 20
-388.5096479412
 10
1144.4408163243
 20
-391.9469171462
 10
1142.3828971371
 20
-395.6459346669
 10
1140.5531341907
 20
-399.5962152363
 10
1138.956714147
 20
-403.7865613548
 10
1137.5981622321
 20
-408.2050950313
 10
1136.481329409
 20
-412.8392914518
 10
1135.6093814615
 20
-417.6760144832
 10
1134.984790021
 20
-422.7015539086
 10
1134.6093255598
 20
-427.9016642904
 10
1134.4840523725
 20
-433.2616053507
 10
1134.6093255598
 20
-438.7661837543
 10
1134.984790021
 20
-444.3997961758
 10
1135.6093814615
 20
-450.1464735284
 10
1136.481329409
 20
-455.9899262311
 10
1137.5981622321
 20
-461.9135903822
 10
1138.9567141471
 20
-467.9006747121
 10
1140.5531341907
 20
-473.9342081797
 10
1142.3828971371
 20
-479.997088079
 10
1144.4408163243
 20
-486.0721285182
 10
1146.7210583568
 20
-492.142109135
 10
1149.2171596408
 20
-498.1898239101
 10
1151.922044706
 20
-504.1981299387
 10
1154.8280462619
 20
-510.1499960246
 10
1157.9269269314
 20
-516.0285509569
 10
1161.2099026003
 20
-521.8171313328
 10
1164.6676673177
 20
-527.4993287923
 10
1168.2904196736
 20
-533.0590365295
 10
1172.0678905829
 20
-538.4804949486
 10
1175.989372394
 20
-543.7483363369
 10
1180.0437492406
 20
-548.8476284254
 10
1184.219528551
 20
-553.7639167168
 10
1188.504873625
 20
-558.4832654578
 10
1192.8876371866
 20
-562.9922971417
 10
1197.3553958161
 20
-567.2782304282
 10
1201.8954851664
 20
-571.3289163737
 10
1206.4950358609
 20
-575.132872869
 10
1211.1410099735
 20
-578.679317186
 10
1215.8202379857
 20
-581.9581965429
 10
1220.5194561174
 20
-584.9602166
 10
1225.2253439243
 20
-587.6768678054
 10
1229.924562056
 20
-590.1004495159
 10
1234.6037900682
 20
-592.224091826
 10
1239.2497641808
 20
-594.0417750407
 10
1243.8493148753
 20
-595.5483467396
 10
1248.3894042256
 20
-596.7395363814
 10
1252.8571628551
 20
-597.6119674097
 10
1257.2399264166
 20
-598.163166824
 10
1261.5252714907
 20
-598.3915721896
 10
1265.7010508011
 20
-598.2965360667
 10
1269.7554276477
 20
-597.8783278455
 10
1273.6769094587
 20
-597.1381329827
 10
1277.4543803681
 20
-596.078049641
 10
1281.077132724
 20
-594.7010827419
 10
1284.5348974413
 20
-593.0111354475
 10
1287.8178731103
 20
-591.0129980972
 10
1290.9167537797
 20
-588.7123346283
 10
1293.8227553356
 20
-586.1156665213
 10
1296.5276404009
 20
-583.2303543143
 10
1299.0237416849
 20
-580.064576738
 10
1301.3039837174
 20
-576.627307533
 10
1303.3619029046
 20
-572.9282900123
 10
1305.1916658509
 20
-568.978009443
 10
1306.7880858946
 20
-564.7876633244
 10
1308.1466378095
 20
-560.3691296479
 10
1309.2634706327
 20
-555.7349332274
 10
1310.1354185801
 20
-550.898210196
 10
1310.7600100206
 20
-545.8726707706
 10
1311.1354744819
 20
-540.6725603889
 10
1311.2607476692
 20
-535.3126193285
  0
ENDSEC
  0
SECTION
  2
OBJECTS
  0
DICTIONARY
  5
C
330
0
100
AcDbDictionary
281
     1
  3
ACAD_GROUP
350
D
  3
ACAD_LAYOUT
350
1A
  3
ACAD_MLINESTYLE
350
17
  3
ACAD_PLOTSETTINGS
350
19
  3
ACAD_PLOTSTYLENAME
350
E
  3
ACAD_SCALELIST
350
47
  0
DICTIONARY
  5
D
102
{ACAD_REACTORS
330
C
102
}
330
C
100
AcDbDictionary
281
     1
  0
DICTIONARY
  5
1A
102
{ACAD_REACTORS
330
C
102
}
330
C
100
AcDbDictionary
281
     1
  3
Layout1
350
1E
  3
Layout2
350
26
  3
Model
350
22
  0
DICTIONARY
  5
17
102
{ACAD_REACTORS
330
C
102
}
330
C
100
AcDbDictionary
281
     1
  3
Standard
350
18
  0
DICTIONARY
  5
19
102
{ACAD_REACTORS
330
C
102
}
330
C
100
AcDbDictionary
281
     1
  0
ACDBDICTIONARYWDFLT
  5
E
102
{ACAD_REACTORS
330
C
102
}
330
C
100
AcDbDictionary
281
     1
  3
Normal
350
F
100
AcDbDictionaryWithDefault
340
F
  0
DICTIONARY
  5
47
102
{ACAD_REACTORS
330
C
102
}
330
C
100
AcDbDictionary
281
     1
  3
A0
350
48
  3
A1
350
49
  3
A2
350
4A
  3
A3
350
4B
  3
A4
350
4C
  3
A5
350
4D
  3
A6
350
4E
  3
A7
350
4F
  3
A8
350
50
  3
A9
350
51
  3
B0
350
52
  3
B1
350
53
  3
B2
350
54
  3
B3
350
55
  3
B4
350
56
  3
B5
350
57
  3
B6
350
58
  3
B7
350
59
  3
B8
350
5A
  3
B9
350
5B
  3
C0
350
5C
  3
C1
350
5D
  3
C2
350
5E
  3
C3
350
5F
  3
C4
350
60
  3
C5
350
61
  3
C6
350
62
  3
C7
350
63
  3
C8
350
64
  3
C9
350
65
  3
D0
350
66
  3
D1
350
67
  3
D2
350
68
  0
LAYOUT
  5
1E
102
{ACAD_REACTORS
330
1A
102
}
330
1A
100
AcDbPlotSettings
  1

  2
none_device
  4

  6

 40
0.0
 41
0.0
 42
0.0
 43
0.0
 44
0.0
 45
0.0
 46
0.0
 47
0.0
 48
0.0
 49
0.0
140
0.0
141
0.0
142
1.0
143
1.0
 70
   688
 72
     1
 73
     0
 74
     5
  7

 75
    16
147
1.0
148
0.0
149
0.0
100
AcDbLayout
  1
Layout1
 70
     1
 71
     1
 10
0.0
 20
0.0
 11
420.0
 21
297.0
 12
0.0
 22
0.0
 32
0.0
 14
1.0000000000E+20
 24
1.0000000000E+20
 34
1.0000000000E+20
 15
-1.0000000000E+20
 25
-1.0000000000E+20
 35
-1.0000000000E+20
146
0.0
 13
0.0
 23
0.0
 33
0.0
 16
1.0
 26
0.0
 36
0.0
 17
0.0
 27
1.0
 37
0.0
 76
     0
330
1B
  0
LAYOUT
  5
26
102
{ACAD_REACTORS
330
1A
102
}
330
1A
100
AcDbPlotSettings
  1

  2
none_device
  4

  6

 40
0.0
 41
0.0
 42
0.0
 43
0.0
 44
0.0
 45
0.0
 46
0.0
 47
0.0
 48
0.0
 49
0.0
140
0.0
141
0.0
142
1.0
143
1.0
 70
   688
 72
     1
 73
     0
 74
     5
  7

 75
    16
147
1.0
148
0.0
149
0.0
100
AcDbLayout
  1
Layout2
 70
     1
 71
     2
 10
0.0
 20
0.0
 11
0.0
 21
0.0
 12
0.0
 22
0.0
 32
0.0
 14
0.0
 24
0.0
 34
0.0
 15
0.0
 25
0.0
 35
0.0
146
0.0
 13
0.0
 23
0.0
 33
0.0
 16
1.0
 26
0.0
 36
0.0
 17
0.0
 27
1.0
 37
0.0
 76
     0
330
23
  0
LAYOUT
  5
22
102
{ACAD_REACTORS
330
1A
102
}
330
1A
100
AcDbPlotSettings
  1

  2
none_device
  4
Letter_(8.50_x_11.00_Inches)
  6

 40
6.35
 41
6.35
 42
6.35000508
 43
6.35000508
 44
215.9
 45
279.4
 46
0.0
 47
0.0
 48
0.0
 49
0.0
140
0.0
141
0.0
142
1.0
143
1.0
 70
  1712
 72
     1
 73
     0
 74
     0
  7

 75
     0
147
1.0
148
0.0
149
0.0
100
AcDbLayout
  1
Model
 70
     1
 71
     0
 10
0.0
 20
0.0
 11
279.4
 21
215.9
 12
0.0
 22
0.0
 32
0.0
 14
0.0
 24
0.0
 34
0.0
 15
279.4
 25
215.9
 35
0.0
146
0.0
 13
0.0
 23
0.0
 33
0.0
 16
1.0
 26
0.0
 36
0.0
 17
0.0
 27
1.0
 37
0.0
 76
     0
330
1F
331
29
  0
MLINESTYLE
  5
18
102
{ACAD_REACTORS
330
17
102
}
330
17
100
AcDbMlineStyle
  2
Standard
 70
     0
  3

 62
   256
 51
90.0
 52
90.0
 71
     2
 49
0.5
 62
   256
  6
BYLAYER
 49
-0.5
 62
   256
  6
BYLAYER
  0
ACDBPLACEHOLDER
  5
F
102
{ACAD_REACTORS
330
E
102
}
330
E
  0
SCALE
  5
48
102
{ACAD_REACTORS
330
47
102
}
330
47
100
AcDbScale
 70
     0
300
1:1
140
1.0
141
1.0
290
     1
  0
SCALE
  5
49
102
{ACAD_REACTORS
330
47
102
}
330
47
100
AcDbScale
 70
     0
300
1:2
140
1.0
141
2.0
290
     0
  0
SCALE
  5
4A
102
{ACAD_REACTORS
330
47
102
}
330
47
100
AcDbScale
 70
     0
300
1:4
140
1.0
141
4.0
290
     0
  0
SCALE
  5
4B
102
{ACAD_REACTORS
330
47
102
}
330
47
100
AcDbScale
 70
     0
300
1:5
140
1.0
141
5.0
290
     0
  0
SCALE
  5
4C
102
{ACAD_REACTORS
330
47
102
}
330
47
100
AcDbScale
 70
     0
300
1:8
140
1.0
141
8.0
290
     0
  0
SCALE
  5
4D
102
{ACAD_REACTORS
330
47
102
}
330
47
100
AcDbScale
 70
     0
300
1:10
140
1.0
141
10.0
290
     0
  0
SCALE
  5
4E
102
{ACAD_REACTORS
330
47
102
}
330
47
100
AcDbScale
 70
     0
300
1:16
140
1.0
141
16.0
290
     0
  0
SCALE
  5
4F
102
{ACAD_REACTORS
330
47
102
}
330
47
100
AcDbScale
 70
     0
300
1:20
140
1.0
141
20.0
290
     0
  0
SCALE
  5
50
102
{ACAD_REACTORS
330
47
102
}
330
47
100
AcDbScale
 70
     0
300
1:30
140
1.0
141
30.0
290
     0
  0
SCALE
  5
51
102
{ACAD_REACTORS
330
47
102
}
330
47
100
AcDbScale
 70
     0
300
1:40
140
1.0
141
40.0
290
     0
  0
SCALE
  5
52
102
{ACAD_REACTORS
330
47
102
}
330
47
100
AcDbScale
 70
     0
300
1:50
140
1.0
141
50.0
290
     0
  0
SCALE
  5
53
102
{ACAD_REACTORS
330
47
102
}
330
47
100
AcDbScale
 70
     0
300
1:100
140
1.0
141
100.0
290
     0
  0
SCALE
  5
54
102
{ACAD_REACTORS
330
47
102
}
330
47
100
AcDbScale
 70
     0
300
2:1
140
2.0
141
1.0
290
     0
  0
SCALE
  5
55
102
{ACAD_REACTORS
330
47
102
}
330
47
100
AcDbScale
 70
     0
300
4:1
140
4.0
141
1.0
290
     0
  0
SCALE
  5
56
102
{ACAD_REACTORS
330
47
102
}
330
47
100
AcDbScale
 70
     0
300
8:1
140
8.0
141
1.0
290
     0
  0
SCALE
  5
57
102
{ACAD_REACTORS
330
47
102
}
330
47
100
AcDbScale
 70
     0
300
10:1
140
10.0
141
1.0
290
     0
  0
SCALE
  5
58
102
{ACAD_REACTORS
330
47
102
}
330
47
100
AcDbScale
 70
     0
300
100:1
140
100.0
141
1.0
290
     0
  0
SCALE
  5
59
102
{ACAD_REACTORS
330
47
102
}
330
47
100
AcDbScale
 70
     0
300
1/128" = 1'-0"
140
0.0078125
141
12.0
290
     0
  0
SCALE
  5
5A
102
{ACAD_REACTORS
330
47
102
}
330
47
100
AcDbScale
 70
     0
300
1/64" = 1'-0"
140
0.015625
141
12.0
290
     0
  0
SCALE
  5
5B
102
{ACAD_REACTORS
330
47
102
}
330
47
100
AcDbScale
 70
     0
300
1/32" = 1'-0"
140
0.03125
141
12.0
290
     0
  0
SCALE
  5
5C
102
{ACAD_REACTORS
330
47
102
}
330
47
100
AcDbScale
 70
     0
300
1/16" = 1'-0"
140
0.0625
141
12.0
290
     0
  0
SCALE
  5
5D
102
{ACAD_REACTORS
330
47
102
}
330
47
100
AcDbScale
 70
     0
300
3/32" = 1'-0"
140
0.09375
141
12.0
290
     0
  0
SCALE
  5
5E
102
{ACAD_REACTORS
330
47
102
}
330
47
100
AcDbScale
 70
     0
300
1/8" = 1'-0"
140
0.125
141
12.0
290
     0
  0
SCALE
  5
5F
102
{ACAD_REACTORS
330
47
102
}
330
47
100
AcDbScale
 70
     0
300
3/16" = 1'-0"
140
0.1875
141
12.0
290
     0
  0
SCALE
  5
60
102
{ACAD_REACTORS
330
47
102
}
330
47
100
AcDbScale
 70
     0
300
1/4" = 1'-0"
140
0.25
141
12.0
290
     0
  0
SCALE
  5
61
102
{ACAD_REACTORS
330
47
102
}
330
47
100
AcDbScale
 70
     0
300
3/8" = 1'-0"
140
0.375
141
12.0
290
     0
  0
SCALE
  5
62
102
{ACAD_REACTORS
330
47
102
}
330
47
100
AcDbScale
 70
     0
300
1/2" = 1'-0"
140
0.5
141
12.0
290
     0
  0
SCALE
  5
63
102
{ACAD_REACTORS
330
47
102
}
330
47
100
AcDbScale
 70
     0
300
3/4" = 1'-0"
140
0.75
141
12.0
290
     0
  0
SCALE
  5
64
102
{ACAD_REACTORS
330
47
102
}
330
47
100
AcDbScale
 70
     0
300
1" = 1'-0"
140
1.0
141
12.0
290
     0
  0
SCALE
  5
65
102
{ACAD_REACTORS
330
47
102
}
330
47
100
AcDbScale
 70
     0
300
1-1/2" = 1'-0"
140
1.5
141
12.0
290
     0
  0
SCALE
  5
66
102
{ACAD_REACTORS
330
47
102
}
330
47
100
AcDbScale
 70
     0
300
3" = 1'-0"
140
3.0
141
12.0
290
     0
  0
SCALE
  5
67
102
{ACAD_REACTORS
330
47
102
}
330
47
100
AcDbScale
 70
     0
300
6" = 1'-0"
140
6.0
141
12.0
290
     0
  0
SCALE
  5
68
102
{ACAD_REACTORS
330
47
102
}
330
47
100
AcDbScale
 70
     0
300
1'-0" = 1'-0"
140
12.0
141
12.0
290
     0
  0
ENDSEC
  0
EOF
